Luan Santana – Tô De Cara

Cifras de Luan Santana – Tô De Cara

F                C
Tô De Cara com você.
                     Dm
Eu Tô de Cara com você.
        Bb                            F
Me Apaixonei e você não quer mais me ver
                  C
Tô de Cara com Você.
                   Dm
Eu tô de cara coração.
                       Bb
Não sei se tudo foi verdade
                 F         C Dm Bb F (2x)
ou foi só enganação

E |--------------------------------------------------------------------------------|
B |--------------------------------------------------------------------------------|
G |--5-5-5-5-3-2-0---2p3-3-3-2-0-----5-5-5-5-5-5-3-3-2-2-0-2---5-5-5-5-3-2-0--2p3--|
D |------------------------------3-------------------------------------------------|
A |--------------------------------------------------------------------------------|
E |--------------------------------------------------------------------------------|

E |----------------------------------|
B |----------------------------------|
G |-3-3-2-0-----2-3-2-3-2-3-2-0------|
D |---------3-------------------3----|
A |----------------------------------|
E |----------------------------------|

  F
Me diz o que é que eu faço
 C
se ela lê pensamento
 Dm
Me diz o que é que eu faço
 Bb
Desse jeito eu não agüento
F
Vê coisa onde não foi
 C
Vê coisa onde não tem
Dm
E eu aqui sozinho
 Bb
Sem você não sou ninguém.

(refrão)
 F                C
Tô De Cara com você.
                     Dm
Eu Tô de Cara com você.
        Bb                            F
Me Apaixonei e você não quer mais me ver
                  C
Tô de Cara com Você.
                  Dm
Eu tô de cara coração.
                       Bb
Não sei se tudo foi verdade
                 F         C Dm Bb F (2x)
ou foi só enganação

 F
Me diz o que é que eu faço
C
se ela me investiga
Dm
Me diz o que é que faço
 Bb
se ela só faz intriga
F
Me engana friamente
C
Só vive indiferente
Dm
e ainda sai dizendo
 Bb
que eu não sou Homem Decente.

(refrão)
 F                C
Tô De Cara com você.
                     Dm
Eu Tô de Cara com você.
        Bb                            F
Me Apaixonei e você não quer mais me ver
                  C
Tô de Cara com Você.
                  Dm
Eu tô de cara coração.
                       Bb
Não sei se tudo foi verdade
                 F         C Dm Bb F (2x)
ou foi só enganação

Tags:

Deixe uma resposta

Preencha os seus dados abaixo ou clique em um ícone para log in:

Logotipo do WordPress.com

Você está comentando utilizando sua conta WordPress.com. Sair / Alterar )

Imagem do Twitter

Você está comentando utilizando sua conta Twitter. Sair / Alterar )

Foto do Facebook

Você está comentando utilizando sua conta Facebook. Sair / Alterar )

Foto do Google+

Você está comentando utilizando sua conta Google+. Sair / Alterar )

Conectando a %s


%d blogueiros gostam disto: